  0
SECTION
  2
HEADER
  9
$ACADVER
  1
AC1015
  9
$ACADMAINTVER
 70
     6
  9
$DWGCODEPAGE
  3
ANSI_1254
  9
$INSBASE
 10
0.0
 20
0.0
 30
0.0
  9
$EXTMIN
 10
0.0
 20
0.0
 30
0.0
  9
$EXTMAX
 10
279.4
 20
215.9
 30
0.0
  9
$LIMMIN
 10
0.0
 20
0.0
  9
$LIMMAX
 10
279.4
 20
215.9
  9
$ORTHOMODE
 70
     0
  9
$REGENMODE
 70
     1
  9
$FILLMODE
 70
     1
  9
$QTEXTMODE
 70
     0
  9
$MIRRTEXT
 70
     1
  9
$LTSCALE
 40
1.0
  9
$ATTMODE
 70
     1
  9
$TEXTSIZE
 40
3.5
  9
$TRACEWID
 40
1.0
  9
$TEXTSTYLE
  7
Standard
  9
$CLAYER
  8
0
  9
$CELTYPE
  6
ByLayer
  9
$CECOLOR
 62
   256
  9
$CELTSCALE
 40
1.0
  9
$DISPSILH
 70
     0
  9
$DIMSCALE
 40
1.0
  9
$DIMASZ
 40
3.5
  9
$DIMEXO
 40
1.0
  9
$DIMDLI
 40
3.75
  9
$DIMRND
 40
0.0
  9
$DIMDLE
 40
0.0
  9
$DIMEXE
 40
1.0
  9
$DIMTP
 40
0.0
  9
$DIMTM
 40
0.0
  9
$DIMTXT
 40
3.5
  9
$DIMCEN
 40
2.5
  9
$DIMTSZ
 40
0.0
  9
$DIMTOL
 70
     0
  9
$DIMLIM
 70
     0
  9
$DIMTIH
 70
     1
  9
$DIMTOH
 70
     1
  9
$DIMSE1
 70
     0
  9
$DIMSE2
 70
     0
  9
$DIMTAD
 70
     1
  9
$DIMZIN
 70
     0
  9
$DIMBLK
  1

  9
$DIMASO
 70
     1
  9
$DIMSHO
 70
     1
  9
$DIMPOST
  1

  9
$DIMAPOST
  1

  9
$DIMALT
 70
     0
  9
$DIMALTD
 70
     3
  9
$DIMALTF
 40
0.0393700787
  9
$DIMLFAC
 40
1.0
  9
$DIMTOFL
 70
     1
  9
$DIMTVP
 40
0.0
  9
$DIMTIX
 70
     0
  9
$DIMSOXD
 70
     0
  9
$DIMSAH
 70
     0
  9
$DIMBLK1
  1

  9
$DIMBLK2
  1

  9
$DIMSTYLE
  2
ISO-25
  9
$DIMCLRD
 70
     0
  9
$DIMCLRE
 70
     0
  9
$DIMCLRT
 70
     0
  9
$DIMTFAC
 40
1.0
  9
$DIMGAP
 40
1.524
  9
$DIMJUST
 70
     0
  9
$DIMSD1
 70
     0
  9
$DIMSD2
 70
     0
  9
$DIMTOLJ
 70
     0
  9
$DIMTZIN
 70
     0
  9
$DIMALTZ
 70
     0
  9
$DIMALTTZ
 70
     0
  9
$DIMUPT
 70
     0
  9
$DIMDEC
 70
     2
  9
$DIMTDEC
 70
     2
  9
$DIMALTU
 70
     2
  9
$DIMALTTD
 70
     3
  9
$DIMTXSTY
  7
Standard
  9
$DIMAUNIT
 70
     0
  9
$DIMADEC
 70
     2
  9
$DIMALTRND
 40
0.0
  9
$DIMAZIN
 70
     0
  9
$DIMDSEP
 70
    44
  9
$DIMATFIT
 70
     3
  9
$DIMFRAC
 70
     0
  9
$DIMLDRBLK
  1

  9
$DIMLUNIT
 70
     2
  9
$DIMLWD
 70
    -2
  9
$DIMLWE
 70
    -2
  9
$DIMTMOVE
 70
     0
  9
$LUNITS
 70
     2
  9
$LUPREC
 70
     2
  9
$SKETCHINC
 40
1.0
  9
$FILLETRAD
 40
10.0
  9
$AUNITS
 70
     0
  9
$AUPREC
 70
     2
  9
$MENU
  1
.
  9
$ELEVATION
 40
0.0
  9
$PELEVATION
 40
0.0
  9
$THICKNESS
 40
0.0
  9
$LIMCHECK
 70
     0
  9
$CHAMFERA
 40
0.0
  9
$CHAMFERB
 40
0.0
  9
$CHAMFERC
 40
0.0
  9
$CHAMFERD
 40
0.0
  9
$SKPOLY
 70
     0
  9
$TDCREATE
 40
2458985.690614711
  9
$TDUCREATE
 40
2458985.565614711
  9
$TDUPDATE
 40
2458985.690614977
  9
$TDUUPDATE
 40
2458985.565614977
  9
$TDINDWG
 40
0.0000000116
  9
$TDUSRTIMER
 40
0.0000000116
  9
$USRTIMER
 70
     1
  9
$ANGBASE
 50
0.0
  9
$ANGDIR
 70
     0
  9
$PDMODE
 70
     0
  9
$PDSIZE
 40
-1.0
  9
$PLINEWID
 40
0.0
  9
$SPLFRAME
 70
     0
  9
$SPLINETYPE
 70
     6
  9
$SPLINESEGS
 70
     8
  9
$HANDSEED
  5
CB
  9
$SURFTAB1
 70
     6
  9
$SURFTAB2
 70
     6
  9
$SURFTYPE
 70
     6
  9
$SURFU
 70
     6
  9
$SURFV
 70
     6
  9
$UCSBASE
  2

  9
$UCSNAME
  2

  9
$UCSORG
 10
0.0
 20
0.0
 30
0.0
  9
$UCSXDIR
 10
1.0
 20
0.0
 30
0.0
  9
$UCSYDIR
 10
0.0
 20
1.0
 30
0.0
  9
$UCSORTHOREF
  2

  9
$UCSORTHOVIEW
 70
     0
  9
$UCSORGTOP
 10
0.0
 20
0.0
 30
0.0
  9
$UCSORGBOTTOM
 10
0.0
 20
0.0
 30
0.0
  9
$UCSORGLEFT
 10
0.0
 20
0.0
 30
0.0
  9
$UCSORGRIGHT
 10
0.0
 20
0.0
 30
0.0
  9
$UCSORGFRONT
 10
0.0
 20
0.0
 30
0.0
  9
$UCSORGBACK
 10
0.0
 20
0.0
 30
0.0
  9
$PUCSBASE
  2

  9
$PUCSNAME
  2

  9
$PUCSORG
 10
0.0
 20
0.0
 30
0.0
  9
$PUCSXDIR
 10
1.0
 20
0.0
 30
0.0
  9
$PUCSYDIR
 10
0.0
 20
1.0
 30
0.0
  9
$PUCSORTHOREF
  2

  9
$PUCSORTHOVIEW
 70
     0
  9
$PUCSORGTOP
 10
0.0
 20
0.0
 30
0.0
  9
$PUCSORGBOTTOM
 10
0.0
 20
0.0
 30
0.0
  9
$PUCSORGLEFT
 10
0.0
 20
0.0
 30
0.0
  9
$PUCSORGRIGHT
 10
0.0
 20
0.0
 30
0.0
  9
$PUCSORGFRONT
 10
0.0
 20
0.0
 30
0.0
  9
$PUCSORGBACK
 10
0.0
 20
0.0
 30
0.0
  9
$USERI1
 70
     0
  9
$USERI2
 70
     0
  9
$USERI3
 70
     0
  9
$USERI4
 70
     0
  9
$USERI5
 70
     0
  9
$USERR1
 40
0.0
  9
$USERR2
 40
0.0
  9
$USERR3
 40
0.0
  9
$USERR4
 40
0.0
  9
$USERR5
 40
0.0
  9
$WORLDVIEW
 70
     1
  9
$SHADEDGE
 70
     3
  9
$SHADEDIF
 70
    70
  9
$TILEMODE
 70
     1
  9
$MAXACTVP
 70
    64
  9
$PINSBASE
 10
0.0
 20
0.0
 30
0.0
  9
$PLIMCHECK
 70
     0
  9
$PEXTMIN
 10
1.0000000000E+20
 20
1.0000000000E+20
 30
1.0000000000E+20
  9
$PEXTMAX
 10
-1.0000000000E+20
 20
-1.0000000000E+20
 30
-1.0000000000E+20
  9
$PLIMMIN
 10
0.0
 20
0.0
  9
$PLIMMAX
 10
420.0
 20
297.0
  9
$UNITMODE
 70
     0
  9
$VISRETAIN
 70
     1
  9
$PLINEGEN
 70
     0
  9
$PSLTSCALE
 70
     1
  9
$TREEDEPTH
 70
  3020
  9
$CMLSTYLE
  2
Standard
  9
$CMLJUST
 70
     0
  9
$CMLSCALE
 40
20.0
  9
$PROXYGRAPHICS
 70
     1
  9
$MEASUREMENT
 70
     1
  9
$CELWEIGHT
370
    -1
  9
$ENDCAPS
280
     0
  9
$JOINSTYLE
280
     0
  9
$LWDISPLAY
290
     1
  9
$INSUNITS
 70
     4
  9
$HYPERLINKBASE
  1

  9
$STYLESHEET
  1

  9
$XEDIT
290
     1
  9
$CEPSNTYPE
380
     0
  9
$PSTYLEMODE
290
     1
  9
$FINGERPRINTGUID
  2
{b80ee95a-5e55-451f-a39c-f085879d303e}
  9
$VERSIONGUID
  2
{FAEB1C32-E019-11D5-929B-00C0DF256EC4}
  9
$EXTNAMES
290
     1
  9
$PSVPSCALE
 40
0.0
  9
$OLESTARTUP
290
     0
  0
ENDSEC
  0
SECTION
  2
CLASSES
  0
CLASS
  1
ACDBDICTIONARYWDFLT
  2
AcDbDictionaryWithDefault
  3
ObjectDBX Classes
 90
        0
280
     0
281
     0
  0
CLASS
  1
VISUALSTYLE
  2
AcDbVisualStyle
  3
ObjectDBX Classes
 90
     4095
280
     0
281
     0
  0
CLASS
  1
MATERIAL
  2
AcDbMaterial
  3
ObjectDBX Classes
 90
     1153
280
     0
281
     0
  0
CLASS
  1
SCALE
  2
AcDbScale
  3
ObjectDBX Classes
 90
     1153
280
     0
281
     0
  0
CLASS
  1
TABLESTYLE
  2
AcDbTableStyle
  3
ObjectDBX Classes
 90
     4095
280
     0
281
     0
  0
CLASS
  1
MLEADERSTYLE
  2
AcDbMLeaderStyle
  3
ACDB_MLEADERSTYLE_CLASS
 90
     4095
280
     0
281
     0
  0
CLASS
  1
SUN
  2
AcDbSun
  3
SCENEOE
 90
     1153
280
     0
281
     0
  0
CLASS
  1
ACDBPLACEHOLDER
  2
AcDbPlaceHolder
  3
ObjectDBX Classes
 90
        0
280
     0
281
     0
  0
CLASS
  1
LAYOUT
  2
AcDbLayout
  3
ObjectDBX Classes
 90
        0
280
     0
281
     0
  0
ENDSEC
  0
SECTION
  2
TABLES
  0
TABLE
  2
VPORT
  5
8
330
0
100
AcDbSymbolTable
 70
     1
  0
VPORT
  5
29
330
8
100
AcDbSymbolTableRecord
100
AcDbViewportTableRecord
  2
*Active
 70
     0
 10
0.0
 20
0.0
 11
1.0
 21
1.0
 12
139.7
 22
107.95
 13
0.0
 23
0.0
 14
10.0
 24
10.0
 15
10.0
 25
10.0
 16
0.0
 26
0.0
 36
1.0
 17
0.0
 27
0.0
 37
0.0
 40
215.9
 41
1.2941176471
 42
50.0
 43
0.0
 44
0.0
 50
0.0
 51
0.0
 71
     0
 72
  2000
 73
     1
 74
     3
 75
     0
 76
     0
 77
     0
 78
     0
281
     0
 65
     1
110
0.0
120
0.0
130
0.0
111
1.0
121
0.0
131
0.0
112
0.0
122
1.0
132
0.0
 79
     0
146
0.0
  0
ENDTAB
  0
TABLE
  2
LTYPE
  5
5
330
0
100
AcDbSymbolTable
 70
     6
  0
LTYPE
  5
14
330
5
100
AcDbSymbolTableRecord
100
AcDbLinetypeTableRecord
  2
ByBlock
 70
     0
  3

 72
    65
 73
     0
 40
0.0
  0
LTYPE
  5
15
330
5
100
AcDbSymbolTableRecord
100
AcDbLinetypeTableRecord
  2
ByLayer
 70
     0
  3

 72
    65
 73
     0
 40
0.0
  0
LTYPE
  5
16
330
5
100
AcDbSymbolTableRecord
100
AcDbLinetypeTableRecord
  2
Continuous
 70
     0
  3
Solid line
 72
    65
 73
     0
 40
0.0
  0
LTYPE
  5
6E
330
5
100
AcDbSymbolTableRecord
100
AcDbLinetypeTableRecord
  2
HIDDEN
 70
     0
  3
Hidden __ __ __ __ __ __ __ __ __ __ __ __ __ __
 72
    65
 73
     2
 40
1.905
 49
1.27
 74
     0
 49
-0.635
 74
     0
  0
LTYPE
  5
6F
330
5
100
AcDbSymbolTableRecord
100
AcDbLinetypeTableRecord
  2
PHANTOM
 70
     0
  3
Phantom ______  __  __  ______  __  __  ______
 72
    65
 73
     6
 40
12.7
 49
6.35
 74
     0
 49
-1.27
 74
     0
 49
1.27
 74
     0
 49
-1.27
 74
     0
 49
1.27
 74
     0
 49
-1.27
 74
     0
  0
LTYPE
  5
70
330
5
100
AcDbSymbolTableRecord
100
AcDbLinetypeTableRecord
  2
CENTER
 70
     0
  3
Center ____ _ ____ _ ____ _ ____ _ ____ _ ____
 72
    65
 73
     4
 40
10.16
 49
6.35
 74
     0
 49
-1.27
 74
     0
 49
1.27
 74
     0
 49
-1.27
 74
     0
  0
LTYPE
  5
71
330
5
100
AcDbSymbolTableRecord
100
AcDbLinetypeTableRecord
  2
CENTERX2
 70
     0
  3
Center (2x) ________  __  ________  __  _____
 72
    65
 73
     4
 40
20.32
 49
12.7
 74
     0
 49
-2.54
 74
     0
 49
2.54
 74
     0
 49
-2.54
 74
     0
  0
LTYPE
  5
72
330
5
100
AcDbSymbolTableRecord
100
AcDbLinetypeTableRecord
  2
DOT2
 70
     0
  3
Dot (.5x) ........................................
 72
    65
 73
     2
 40
0.635
 49
0.0
 74
     0
 49
-0.635
 74
     0
  0
ENDTAB
  0
TABLE
  2
LAYER
  5
2
330
0
100
AcDbSymbolTable
 70
    17
  0
LAYER
  5
10
330
2
100
AcDbSymbolTableRecord
100
AcDbLayerTableRecord
  2
0
 70
     0
 62
     7
  6
Continuous
370
    -3
390
F
  0
LAYER
  5
73
330
2
100
AcDbSymbolTableRecord
100
AcDbLayerTableRecord
  2
FORMAT
 70
     0
 62
     7
  6
Continuous
370
    -3
390
F
  0
LAYER
  5
74
330
2
100
AcDbSymbolTableRecord
100
AcDbLayerTableRecord
  2
YARDIMCI_GEOMETRI
 70
     0
 62
    -6
  6
Continuous
290
     0
370
    -3
390
F
  0
LAYER
  5
75
330
2
100
AcDbSymbolTableRecord
100
AcDbLayerTableRecord
  2
SAYFA_CERCEVESI
 70
     0
 62
     7
  6
Continuous
370
    25
390
F
  0
LAYER
  5
76
330
2
100
AcDbSymbolTableRecord
100
AcDbLayerTableRecord
  2
ANTET
 70
     0
 62
     7
  6
Continuous
370
    -3
390
F
  0
LAYER
  5
77
330
2
100
AcDbSymbolTableRecord
100
AcDbLayerTableRecord
  2
OLCU
 70
     0
 62
   150
  6
Continuous
370
    -3
390
F
  0
LAYER
  5
78
330
2
100
AcDbSymbolTableRecord
100
AcDbLayerTableRecord
  2
METIN
 70
     0
 62
    96
  6
Continuous
370
    -3
390
F
  0
LAYER
  5
79
330
2
100
AcDbSymbolTableRecord
100
AcDbLayerTableRecord
  2
BALON
 70
     0
 62
     5
  6
Continuous
370
    -3
390
F
  0
LAYER
  5
7A
330
2
100
AcDbSymbolTableRecord
100
AcDbLayerTableRecord
  2
VURGU
 70
     0
 62
     7
  6
Continuous
370
    -3
390
F
  0
LAYER
  5
7B
330
2
100
AcDbSymbolTableRecord
100
AcDbLayerTableRecord
  2
SILIK
 70
     0
 62
     7
  6
Continuous
370
    -3
390
F
  0
LAYER
  5
7C
330
2
100
AcDbSymbolTableRecord
100
AcDbLayerTableRecord
  2
MODEL
 70
     0
 62
     7
  6
Continuous
370
    -3
390
F
  0
LAYER
  5
7D
330
2
100
AcDbSymbolTableRecord
100
AcDbLayerTableRecord
  2
DETAYLANDıRMA
 70
     0
 62
   190
  6
Continuous
370
    -3
390
F
  0
LAYER
  5
7E
330
2
100
AcDbSymbolTableRecord
100
AcDbLayerTableRecord
  2
TOLERANS
 70
     0
 62
   230
  6
Continuous
370
    -3
390
F
  0
LAYER
  5
7F
330
2
100
AcDbSymbolTableRecord
100
AcDbLayerTableRecord
  2
MERKEZ_CIZGILERI
 70
     0
 62
    30
  6
Continuous
370
    -3
390
F
  0
LAYER
  5
80
330
2
100
AcDbSymbolTableRecord
100
AcDbLayerTableRecord
  2
KESIT-DETAY_CIZGILERI
 70
     0
 62
     7
  6
Continuous
370
    -3
390
F
  0
LAYER
  5
81
330
2
100
AcDbSymbolTableRecord
100
AcDbLayerTableRecord
  2
\U+041E\U+0421\U+0415\U+0412\U+042B\U+0415
 70
     0
 62
     7
  6
Continuous
370
    -3
390
F
  0
LAYER
  5
82
330
2
100
AcDbSymbolTableRecord
100
AcDbLayerTableRecord
  2
\U+0412\U+041E\U+0414\U+042F\U+041D\U+042B\U+0415_\U+0417\U+041D\U+0410\U+041A\U+0418
 70
     0
 62
    11
  6
Continuous
370
    -3
390
F
  0
ENDTAB
  0
TABLE
  2
STYLE
  5
3
330
0
100
AcDbSymbolTable
 70
     1
  0
STYLE
  5
11
330
3
100
AcDbSymbolTableRecord
100
AcDbTextStyleTableRecord
  2
Standard
 70
     0
 40
0.0
 41
1.0
 50
0.0
 71
     0
 42
3.5
  3
txt
  4

  0
ENDTAB
  0
TABLE
  2
VIEW
  5
6
330
0
100
AcDbSymbolTable
 70
     0
  0
ENDTAB
  0
TABLE
  2
UCS
  5
7
330
0
100
AcDbSymbolTable
 70
     0
  0
ENDTAB
  0
TABLE
  2
APPID
  5
9
330
0
100
AcDbSymbolTable
 70
     1
  0
APPID
  5
12
330
9
100
AcDbSymbolTableRecord
100
AcDbRegAppTableRecord
  2
ACAD
 70
     0
  0
ENDTAB
  0
TABLE
  2
DIMSTYLE
  5
A
330
0
100
AcDbSymbolTable
 70
     1
100
AcDbDimStyleTable
  0
DIMSTYLE
105
27
330
A
100
AcDbSymbolTableRecord
100
AcDbDimStyleTableRecord
  2
ISO-25
 70
     0
 41
2.5
 42
0.625
 43
3.75
 44
1.25
 73
     0
 74
     0
 77
     1
 78
     8
140
2.5
141
2.5
143
0.0393700787
147
0.625
171
     3
172
     1
178
     0
271
     2
272
     2
274
     3
278
    44
283
     0
284
     8
340
11
  0
ENDTAB
  0
TABLE
  2
BLOCK_RECORD
  5
1
330
0
100
AcDbSymbolTable
 70
     3
  0
BLOCK_RECORD
  5
1F
330
1
100
AcDbSymbolTableRecord
100
AcDbBlockTableRecord
  2
*Model_Space
340
22
  0
BLOCK_RECORD
  5
1B
330
1
100
AcDbSymbolTableRecord
100
AcDbBlockTableRecord
  2
*Paper_Space
340
1E
  0
BLOCK_RECORD
  5
23
330
1
100
AcDbSymbolTableRecord
100
AcDbBlockTableRecord
  2
*Paper_Space0
340
26
  0
BLOCK_RECORD
  5
88
330
1
100
AcDbSymbolTableRecord
100
AcDbBlockTableRecord
  2
SW_CENTERMARKSYMBOL_0
340
0
102
{BLKREFS
331
93
102
}
  0
BLOCK_RECORD
  5
9C
330
1
100
AcDbSymbolTableRecord
100
AcDbBlockTableRecord
  2
SW_CENTERMARKSYMBOL_1
340
0
102
{BLKREFS
331
A7
102
}
  0
ENDTAB
  0
ENDSEC
  0
SECTION
  2
BLOCKS
  0
BLOCK
  5
20
330
1F
100
AcDbEntity
  8
0
100
AcDbBlockBegin
  2
*Model_Space
 70
     0
 10
0.0
 20
0.0
 30
0.0
  3
*Model_Space
  1

  0
ENDBLK
  5
21
330
1F
100
AcDbEntity
  8
0
100
AcDbBlockEnd
  0
BLOCK
  5
1C
330
1B
100
AcDbEntity
 67
     1
  8
0
100
AcDbBlockBegin
  2
*Paper_Space
 70
     0
 10
0.0
 20
0.0
 30
0.0
  3
*Paper_Space
  1

  0
ENDBLK
  5
1D
330
1B
100
AcDbEntity
 67
     1
  8
0
100
AcDbBlockEnd
  0
BLOCK
  5
24
330
23
100
AcDbEntity
  8
0
100
AcDbBlockBegin
  2
*Paper_Space0
 70
     0
 10
0.0
 20
0.0
 30
0.0
  3
*Paper_Space0
  1

  0
ENDBLK
  5
25
330
23
100
AcDbEntity
  8
0
100
AcDbBlockEnd
  0
BLOCK
  5
89
330
88
100
AcDbEntity
  8
0
100
AcDbBlockBegin
  2
SW_CENTERMARKSYMBOL_0
 70
     0
 10
0.0
 20
0.0
 30
0.0
  3
SW_CENTERMARKSYMBOL_0
  1

  0
LINE
  5
8B
330
88
100
AcDbEntity
  8
FORMAT
 62
     0
100
AcDbLine
 10
0.0
 20
0.0
 30
0.0
 11
2.5
 21
0.0
 31
0.0
  0
LINE
  5
8C
330
88
100
AcDbEntity
  8
FORMAT
 62
     0
100
AcDbLine
 10
0.0
 20
0.0
 30
0.0
 11
0.0
 21
2.5
 31
0.0
  0
LINE
  5
8D
330
88
100
AcDbEntity
  8
FORMAT
 62
     0
100
AcDbLine
 10
0.0
 20
0.0
 30
0.0
 11
-2.5
 21
0.0
 31
0.0
  0
LINE
  5
8E
330
88
100
AcDbEntity
  8
FORMAT
 62
     0
100
AcDbLine
 10
0.0
 20
0.0
 30
0.0
 11
0.0
 21
-2.5
 31
0.0
  0
LINE
  5
8F
330
88
100
AcDbEntity
  8
FORMAT
 62
     0
100
AcDbLine
 10
5.0
 20
0.0
 30
0.0
 11
72.5
 21
0.0
 31
0.0
  0
LINE
  5
90
330
88
100
AcDbEntity
  8
FORMAT
 62
     0
100
AcDbLine
 10
0.0
 20
5.0
 30
0.0
 11
0.0
 21
72.5
 31
0.0
  0
LINE
  5
91
330
88
100
AcDbEntity
  8
FORMAT
 62
     0
100
AcDbLine
 10
-5.0
 20
0.0
 30
0.0
 11
-72.5
 21
0.0
 31
0.0
  0
LINE
  5
92
330
88
100
AcDbEntity
  8
FORMAT
 62
     0
100
AcDbLine
 10
0.0
 20
-5.0
 30
0.0
 11
0.0
 21
-72.5
 31
0.0
  0
ENDBLK
  5
8A
330
88
100
AcDbEntity
  8
0
100
AcDbBlockEnd
  0
BLOCK
  5
9D
330
9C
100
AcDbEntity
  8
0
100
AcDbBlockBegin
  2
SW_CENTERMARKSYMBOL_1
 70
     0
 10
0.0
 20
0.0
 30
0.0
  3
SW_CENTERMARKSYMBOL_1
  1

  0
LINE
  5
9F
330
9C
100
AcDbEntity
  8
FORMAT
 62
     0
100
AcDbLine
 10
0.0
 20
0.0
 30
0.0
 11
0.0
 21
2.5
 31
0.0
  0
LINE
  5
A0
330
9C
100
AcDbEntity
  8
FORMAT
 62
     0
100
AcDbLine
 10
0.0
 20
0.0
 30
0.0
 11
-2.5
 21
0.0
 31
0.0
  0
LINE
  5
A1
330
9C
100
AcDbEntity
  8
FORMAT
 62
     0
100
AcDbLine
 10
0.0
 20
0.0
 30
0.0
 11
0.0
 21
-2.5
 31
0.0
  0
LINE
  5
A2
330
9C
100
AcDbEntity
  8
FORMAT
 62
     0
100
AcDbLine
 10
0.0
 20
0.0
 30
0.0
 11
2.5
 21
0.0
 31
0.0
  0
LINE
  5
A3
330
9C
100
AcDbEntity
  8
FORMAT
 62
     0
100
AcDbLine
 10
0.0
 20
5.0
 30
0.0
 11
0.0
 21
47.5
 31
0.0
  0
LINE
  5
A4
330
9C
100
AcDbEntity
  8
FORMAT
 62
     0
100
AcDbLine
 10
-5.0
 20
0.0
 30
0.0
 11
-47.5
 21
0.0
 31
0.0
  0
LINE
  5
A5
330
9C
100
AcDbEntity
  8
FORMAT
 62
     0
100
AcDbLine
 10
0.0
 20
-5.0
 30
0.0
 11
0.0
 21
-47.5
 31
0.0
  0
LINE
  5
A6
330
9C
100
AcDbEntity
  8
FORMAT
 62
     0
100
AcDbLine
 10
5.0
 20
0.0
 30
0.0
 11
47.5
 21
0.0
 31
0.0
  0
ENDBLK
  5
9E
330
9C
100
AcDbEntity
  8
0
100
AcDbBlockEnd
  0
ENDSEC
  0
SECTION
  2
ENTITIES
  0
LINE
  5
83
330
1F
100
AcDbEntity
  8
0
  6
Continuous
 62
     7
370
    25
100
AcDbLine
 10
95.2388257771
 20
99.4891364563
 30
0.0
 11
95.2388257771
 21
-21.8167352986
 31
0.0
  0
LINE
  5
84
330
1F
100
AcDbEntity
  8
0
  6
Continuous
 62
     7
370
    25
100
AcDbLine
 10
185.2388293534
 20
-21.8167352986
 30
0.0
 11
185.2388293534
 21
99.5456267584
 31
0.0
  0
CIRCLE
  5
85
330
1F
100
AcDbEntity
  8
0
  6
Continuous
 62
     7
370
    25
100
AcDbCircle
 10
140.2388275653
 20
153.1832617212
 30
0.0
 40
61.69999999999999
  0
CIRCLE
  5
86
330
1F
100
AcDbEntity
  8
0
  6
Continuous
 62
     7
370
    25
100
AcDbCircle
 10
140.2388275653
 20
153.1832617212
 30
0.0
 40
70.00000000000001
  0
LINE
  5
87
330
1F
100
AcDbEntity
  8
0
  6
Continuous
 62
     7
370
    25
100
AcDbLine
 10
185.2388293534
 20
-21.8167352986
 30
0.0
 11
95.2388257771
 21
-21.8167352986
 31
0.0
  0
INSERT
  5
93
330
1F
100
AcDbEntity
  8
FORMAT
 62
     7
100
AcDbBlockReference
  2
SW_CENTERMARKSYMBOL_0
 10
140.2388275653
 20
153.1832617212
 30
0.0
  0
LINE
  5
94
330
1F
100
AcDbEntity
  8
0
  6
Continuous
 62
     7
370
    25
100
AcDbLine
 10
210.2388278633
 20
327.5124520295
 30
0.0
 11
210.2388278633
 21
707.5124472612
 31
0.0
  0
LINE
  5
95
330
1F
100
AcDbEntity
  8
0
  6
Continuous
 62
     7
370
    25
100
AcDbLine
 10
70.2388272672
 20
707.5124472612
 30
0.0
 11
70.2388272672
 21
327.5124520295
 31
0.0
  0
CIRCLE
  5
96
330
1F
100
AcDbEntity
  8
0
  6
Continuous
 62
     7
370
    25
100
AcDbCircle
 10
140.2388275653
 20
517.5124496453
 30
0.0
 40
39.60000000000002
  0
CIRCLE
  5
97
330
1F
100
AcDbEntity
  8
0
  6
Continuous
 62
     7
370
    25
100
AcDbCircle
 10
140.2388275653
 20
517.5124496453
 30
0.0
 40
45.0
  0
LINE
  5
98
330
1F
100
AcDbEntity
  8
0
  6
Continuous
 62
     7
370
    25
100
AcDbLine
 10
140.2388275653
 20
707.5124472612
 30
0.0
 11
210.2388278633
 21
707.5124472612
 31
0.0
  0
LINE
  5
99
330
1F
100
AcDbEntity
  8
0
  6
Continuous
 62
     7
370
    25
100
AcDbLine
 10
70.2388272672
 20
707.5124472612
 30
0.0
 11
140.2388275653
 21
707.5124472612
 31
0.0
  0
LINE
  5
9A
330
1F
100
AcDbEntity
  8
0
  6
Continuous
 62
     7
370
    25
100
AcDbLine
 10
140.2388275653
 20
327.5124520295
 30
0.0
 11
210.2388278633
 21
327.5124520295
 31
0.0
  0
LINE
  5
9B
330
1F
100
AcDbEntity
  8
0
  6
Continuous
 62
     7
370
    25
100
AcDbLine
 10
70.2388272672
 20
327.5124520295
 30
0.0
 11
140.2388275653
 21
327.5124520295
 31
0.0
  0
INSERT
  5
A7
330
1F
100
AcDbEntity
  8
FORMAT
100
AcDbBlockReference
  2
SW_CENTERMARKSYMBOL_1
 10
140.2388275653
 20
517.5124496453
 30
0.0
  0
LINE
  5
A8
330
1F
100
AcDbEntity
  8
0
  6
Continuous
 62
     7
370
    25
100
AcDbLine
 10
-116.3520865498
 20
223.1832620192
 30
0.0
 11
-496.3520817814
 21
223.1832620192
 31
0.0
  0
LINE
  5
A9
330
1F
100
AcDbEntity
  8
0
  6
Continuous
 62
     7
370
    25
100
AcDbLine
 10
-261.4020422457
 20
83.1832614231
 30
0.0
 11
-116.3520865498
 21
83.1832614231
 31
0.0
  0
LINE
  5
AA
330
1F
100
AcDbEntity
  8
0
  6
Continuous
 62
     7
370
    25
100
AcDbLine
 10
-496.3520817814
 20
83.1832614231
 30
0.0
 11
-351.3520859538
 21
83.1832614231
 31
0.0
  0
LINE
  5
AB
330
1F
100
AcDbEntity
  8
0
  6
Continuous
 62
     7
370
    25
100
AcDbLine
 10
-351.3520859538
 20
83.1832614231
 30
0.0
 11
-351.3520859538
 21
-21.8167352986
 31
0.0
  0
LINE
  5
AC
330
1F
100
AcDbEntity
  8
0
  6
Continuous
 62
     7
370
    25
100
AcDbLine
 10
-261.3520823775
 20
-21.8167352986
 30
0.0
 11
-261.3520823775
 21
83.2152467656
 31
0.0
  0
SPLINE
  5
AD
330
1F
100
AcDbEntity
  8
0
  6
Continuous
 62
     7
370
    25
100
AcDbSpline
210
0.0
220
0.0
230
1.0
 70
     8
 71
     3
 72
    38
 73
    34
 74
     0
 42
0.000000001
 43
0.00000001
 40
0.0
 40
0.0
 40
0.0
 40
0.0
 40
0.0052205298463681
 40
0.0524505691347298
 40
0.095836885526784
 40
0.1403266626797663
 40
0.1869784064810494
 40
0.2346562901194892
 40
0.288413567982906
 40
0.3159887024723098
 40
0.3435617294641394
 40
0.3901800729071372
 40
0.4141226541173601
 40
0.438061304010527
 40
0.4614377537741966
 40
0.4848116028352921
 40
0.5091275905486167
 40
0.533444395459006
 40
0.5734971865413786
 40
0.614546214964689
 40
0.6414719284851582
 40
0.6684017336106052
 40
0.69610048342208
 40
0.7238007661367472
 40
0.7783602653571592
 40
0.8063969477157846
 40
0.8344308521348051
 40
0.8624986202288675
 40
0.8905625462413925
 40
0.9197584825001396
 40
0.9489503321687005
 40
0.9743537307371275
 40
1.0
 40
1.0
 40
1.0
 40
1.0
 10
-261.402042245674
 20
83.21530637027531
 30
0.0
 10
-261.3858241759133
 20
83.20490426064256
 30
0.0
 10
-261.2228815217683
 20
83.10039445292266
 30
0.0
 10
-261.8709452521549
 20
83.5174317516953
 30
0.0
 10
-263.3486480094425
 20
84.45478967500725
 30
0.0
 10
-265.7456731927221
 20
85.93577923206811
 30
0.0
 10
-268.987886001626
 20
87.85267205078007
 30
0.0
 10
-273.2262915241641
 20
90.19881343648453
 30
0.0
 10
-277.564189864811
 20
92.36877486054284
 30
0.0
 10
-281.6148388598714
 20
94.15653663421641
 30
0.0
 10
-285.6371692152124
 20
95.75324325750678
 30
0.0
 10
-289.8169918891225
 20
97.13590899382824
 30
0.0
 10
-294.070917085221
 20
98.2063300136608
 30
0.0
 10
-297.3829331168444
 20
98.85303881126526
 30
0.0
 10
-300.749842789403
 20
99.30611036926466
 30
0.0
 10
-304.1878873979315
 20
99.5587146568968
 30
0.0
 10
-307.6947324628908
 20
99.58527868936565
 30
0.0
 10
-311.9957056899298
 20
99.33701602647261
 30
0.0
 10
-317.0158359096554
 20
98.60862099817791
 30
0.0
 10
-321.9144203373515
 20
97.40654648317995
 30
0.0
 10
-325.982436881464
 20
96.11305199195638
 30
0.0
 10
-329.307876375232
 20
94.88239317468638
 30
0.0
 10
-332.4790617338702
 20
93.55928924111612
 30
0.0
 10
-336.449784049586
 20
91.73546672163052
 30
0.0
 10
-340.0283321587952
 20
89.89084534464827
 30
0.0
 10
-343.1472604263564
 20
88.16228795067272
 30
0.0
 10
-345.2640613026085
 20
86.9390190857079
 30
0.0
 10
-347.1032775985085
 20
85.8405898449184
 30
0.0
 10
-348.6662132255674
 20
84.88178262071297
 30
0.0
 10
-349.9127189855072
 20
84.10164534082823
 30
0.0
 10
-350.7616848079788
 20
83.56187670755381
 30
0.0
 10
-351.2623312809862
 20
83.24102837021574
 30
0.0
 10
-351.3220729883701
 20
83.20257804843612
 30
0.0
 10
-351.35208595376
 20
83.18326142312795
 30
0.0
  0
LINE
  5
AE
330
1F
100
AcDbEntity
  8
0
  6
Continuous
 62
     7
370
    25
100
AcDbLine
 10
-496.3520817814
 20
83.1832614231
 30
0.0
 11
-496.3520817814
 21
223.1832620192
 31
0.0
  0
LINE
  5
AF
330
1F
100
AcDbEntity
  8
0
  6
Continuous
 62
     7
370
    25
100
AcDbLine
 10
-116.3520865498
 20
83.1832614231
 30
0.0
 11
-116.3520865498
 21
223.1832620192
 31
0.0
  0
LINE
  5
B0
330
1F
100
AcDbEntity
  8
0
  6
Continuous
 62
     7
370
    25
100
AcDbLine
 10
-261.3520823775
 20
-21.8167352986
 30
0.0
 11
-351.3520859538
 21
-21.8167352986
 31
0.0
  0
LINE
  5
B1
330
1F
100
AcDbEntity
  8
0
  6
Continuous
 62
     7
370
    25
100
AcDbLine
 10
613.0134436939
 20
83.1832614231
 30
0.0
 11
758.0134395215
 21
83.1832614231
 31
0.0
  0
LINE
  5
B2
330
1F
100
AcDbEntity
  8
0
  6
Continuous
 62
     7
370
    25
100
AcDbLine
 10
378.0134442899
 20
83.1832614231
 30
0.0
 11
523.0633999858
 21
83.1832614231
 31
0.0
  0
LINE
  5
B3
330
1F
100
AcDbEntity
  8
0
  6
Continuous
 62
     7
370
    25
100
AcDbLine
 10
758.0134395215
 20
223.1832620192
 30
0.0
 11
378.0134442899
 21
223.1832620192
 31
0.0
  0
LINE
  5
B4
330
1F
100
AcDbEntity
  8
0
  6
Continuous
 62
     7
370
    25
100
AcDbLine
 10
523.0134401176
 20
83.2152467656
 30
0.0
 11
523.0134401176
 21
-21.8167352986
 31
0.0
  0
LINE
  5
B5
330
1F
100
AcDbEntity
  8
0
  6
Continuous
 62
     7
370
    25
100
AcDbLine
 10
613.0134436939
 20
-21.8167352986
 30
0.0
 11
613.0134436939
 21
83.1832614231
 31
0.0
  0
SPLINE
  5
B6
330
1F
100
AcDbEntity
  8
0
  6
Continuous
 62
     7
370
    25
100
AcDbSpline
210
0.0
220
0.0
230
1.0
 70
     8
 71
     3
 72
    32
 73
    28
 74
     0
 42
0.000000001
 43
0.00000001
 40
0.0
 40
0.0
 40
0.0
 40
0.0
 40
0.0460655802269561
 40
0.0936114785066277
 40
0.1396457962265926
 40
0.1868339731574446
 40
0.2367519166019714
 40
0.2877806133700308
 40
0.3161421273739987
 40
0.3447020506279161
 40
0.373941376548968
 40
0.4034518678779884
 40
0.4448794180891933
 40
0.4874393650631584
 40
0.5289032685080367
 40
0.5716640462520569
 40
0.6120694569073616
 40
0.6533085892415764
 40
0.7016101332618834
 40
0.7509097531067962
 40
0.7793216000159146
 40
0.807933360754226
 40
0.8372178600083009
 40
0.8667593815865302
 40
0.9124776810562488
 40
0.9594700476688932
 40
1.0
 40
1.0
 40
1.0
 40
1.0
 10
613.0134436938655
 20
83.18326142312795
 30
0.0
 10
612.9160423835276
 20
83.2460785260808
 30
0.0
 10
612.7181097704074
 20
83.37373136045188
 30
0.0
 10
611.14175682907
 20
84.37749431717445
 30
0.0
 10
608.6972225113176
 20
85.88919966077628
 30
0.0
 10
605.3518769607459
 20
87.86879608849765
 30
0.0
 10
601.0997475037983
 20
90.2199767844185
 30
0.0
 10
596.7456537472348
 20
92.39248670183257
 30
0.0
 10
592.7345342880482
 20
94.16473790786928
 30
0.0
 10
589.3245187013472
 20
95.515434943829
 30
0.0
 10
585.6658264223454
 20
96.77144868123253
 30
0.0
 10
581.249061827202
 20
98.02025862464026
 30
0.0
 10
575.9752282365795
 20
99.08465618806564
 30
0.0
 10
569.9087502982786
 20
99.64876924279339
 30
0.0
 10
563.7182903200645
 20
99.50868754968512
 30
0.0
 10
557.765360959644
 20
98.69376358788764
 30
0.0
 10
552.109112450645
 20
97.33508438163801
 30
0.0
 10
546.5792685641783
 20
95.5147478341914
 30
0.0
 10
541.1693411603612
 20
93.28444640765751
 30
0.0
 10
536.7954879433748
 20
91.1665242993153
 30
0.0
 10
533.5027942374503
 20
89.4299781363854
 30
0.0
 10
531.0795898947283
 20
88.08400278617363
 30
0.0
 10
528.9020355291335
 20
86.82220950771834
 30
0.0
 10
526.6579350108434
 20
85.47640168620498
 30
0.0
 10
524.6422863510109
 20
84.22420162323904
 30
0.0
 10
523.2377262692177
 20
83.3278193061786
 30
0.0
 10
523.1185761719374
 20
83.25091795204106
 30
0.0
 10
523.0633999857795
 20
83.21530637027531
 30
0.0
  0
LINE
  5
B7
330
1F
100
AcDbEntity
  8
0
  6
Continuous
 62
     7
370
    25
100
AcDbLine
 10
758.0134395215
 20
223.1832620192
 30
0.0
 11
758.0134395215
 21
83.1832614231
 31
0.0
  0
LINE
  5
B8
330
1F
100
AcDbEntity
  8
0
  6
Continuous
 62
     7
370
    25
100
AcDbLine
 10
378.0134442899
 20
223.1832620192
 30
0.0
 11
378.0134442899
 21
83.1832614231
 31
0.0
  0
LINE
  5
B9
330
1F
100
AcDbEntity
  8
0
  6
Continuous
 62
     7
370
    25
100
AcDbLine
 10
613.0134436939
 20
-21.8167352986
 30
0.0
 11
523.0134401176
 21
-21.8167352986
 31
0.0
  0
LINE
  5
BA
330
1F
100
AcDbEntity
  8
0
  6
Continuous
 62
     7
370
    25
100
AcDbLine
 10
70.2388272672
 20
-105.8007701427
 30
0.0
 11
70.2388272672
 21
-485.8007653743
 31
0.0
  0
LINE
  5
BB
330
1F
100
AcDbEntity
  8
0
  6
Continuous
 62
     7
370
    25
100
AcDbLine
 10
210.2388278633
 20
-485.8007653743
 30
0.0
 11
210.2388278633
 21
-105.8007701427
 31
0.0
  0
LINE
  5
BC
330
1F
100
AcDbEntity
  8
0
  6
Continuous
 62
     7
370
    25
100
AcDbLine
 10
210.2388278633
 20
-485.8007653743
 30
0.0
 11
70.2388272672
 21
-485.8007653743
 31
0.0
  0
LINE
  5
BD
330
1F
100
AcDbEntity
  8
0
  6
Continuous
 62
     7
370
    25
100
AcDbLine
 10
210.2388278633
 20
-105.8007701427
 30
0.0
 11
70.2388272672
 21
-105.8007701427
 31
0.0
  0
LINE
  5
BE
330
1F
100
AcDbEntity
  8
0
  6
Continuous
 62
     7
370
    25
100
AcDbLine
 10
712.4681969168
 20
-266.0704814292
 30
0.0
 11
443.7676234376
 21
-110.9529421293
 31
0.0
  0
LINE
  5
BF
330
1F
100
AcDbEntity
  8
0
  6
Continuous
 62
     7
370
    25
100
AcDbLine
 10
373.7733142495
 20
-232.1997823269
 30
0.0
 11
498.1207564059
 21
-303.9840327131
 31
0.0
  0
LINE
  5
C0
330
1F
100
AcDbEntity
  8
0
  6
Continuous
 62
     7
370
    25
100
AcDbLine
 10
588.1207587116
 20
-355.9399281318
 30
0.0
 11
642.4738877286
 21
-387.3173216268
 31
0.0
  0
LINE
  5
C1
330
1F
100
AcDbEntity
  8
0
  6
Continuous
 62
     7
370
    25
100
AcDbLine
 10
498.1207550889
 20
-300.0421178292
 30
0.0
 11
498.1207550889
 21
-392.0297715246
 31
0.0
  0
LINE
  5
C2
330
1F
100
AcDbEntity
  8
0
  6
Continuous
 62
     7
370
    25
100
AcDbLine
 10
588.1207560774
 20
-392.0297715246
 30
0.0
 11
588.1207560774
 21
-300.0411231437
 31
0.0
  0
SPLINE
  5
C3
330
1F
100
AcDbEntity
  8
0
  6
Continuous
 62
     7
370
    25
100
AcDbSpline
210
0.0
220
0.0
230
1.0
 70
     8
 71
     3
 72
    13
 73
     9
 74
     0
 42
0.000000001
 43
0.00000001
 40
0.0
 40
0.0
 40
0.0
 40
0.0
 40
0.1849318197785786
 40
0.375806426123418
 40
0.5606127415171558
 40
0.7500512634865257
 40
0.9504485248543222
 40
1.0
 40
1.0
 40
1.0
 40
1.0
 10
511.3009491653181
 20
-287.9238057074644
 30
0.0
 10
509.7843490382718
 20
-288.8274021555524
 30
0.0
 10
506.7024128182859
 20
-290.6636321359871
 30
0.0
 10
503.16753693659
 20
-293.1738413997072
 30
0.0
 10
500.4730338558317
 20
-295.4823578445532
 30
0.0
 10
498.797174163063
 20
-297.5969319153683
 30
0.0
 10
498.0374644632317
 20
-299.0864113921606
 30
0.0
 10
498.1902751676155
 20
-299.8820673134902
 30
0.0
 10
498.2205693628409
 20
-300.0398033563293
 30
0.0
  0
SPLINE
  5
C4
330
1F
100
AcDbEntity
  8
0
  6
Continuous
 62
     7
370
    25
100
AcDbSpline
210
0.0
220
0.0
230
1.0
 70
     8
 71
     3
 72
    32
 73
    28
 74
     0
 42
0.000000001
 43
0.00000001
 40
0.0
 40
0.0
 40
0.0
 40
0.0
 40
0.0524084100156749
 40
0.089007464915843
 40
0.1258468519226913
 40
0.1879264556383803
 40
0.2196856686266204
 40
0.2516880626498884
 40
0.2826752153925626
 40
0.3139439180838146
 40
0.3461547360284991
 40
0.378706881107372
 40
0.432043426648534
 40
0.4867066177709102
 40
0.5224302728145577
 40
0.5584237863917725
 40
0.5951890094920137
 40
0.6321963059263077
 40
0.7048507985654786
 40
0.7420491698830702
 40
0.7795177117435479
 40
0.8167301252986973
 40
0.8542661778183412
 40
0.8929253270130328
 40
0.93201939591312
 40
0.9658479878296893
 40
0.9999999999999999
 40
0.9999999999999999
 40
0.9999999999999999
 40
0.9999999999999999
 10
588.0021785532741
 20
-300.0437280661685
 30
0.0
 10
587.9930917886072
 20
-298.4703053604977
 30
0.0
 10
587.9776593439474
 20
-295.7980936633502
 30
0.0
 10
587.2301800999387
 20
-292.063395153122
 30
0.0
 10
586.1019755626137
 20
-288.1352148429572
 30
0.0
 10
584.4799405158948
 20
-284.5273279791265
 30
0.0
 10
582.4508904078847
 20
-281.3518365250312
 30
0.0
 10
580.6805307260076
 20
-279.1468262653018
 30
0.0
 10
578.6881418021082
 20
-277.1731410723727
 30
0.0
 10
576.4734104393157
 20
-275.4446784083376
 30
0.0
 10
574.0145401439839
 20
-273.9732031658169
 30
0.0
 10
570.7629157681656
 20
-272.5425886945393
 30
0.0
 10
566.5853993521474
 20
-271.4455386599789
 30
0.0
 10
562.0419980074339
 20
-271.0537348435938
 30
0.0
 10
557.9177901728219
 20
-271.1688312225261
 30
0.0
 10
554.308601981111
 20
-271.5439993414291
 30
0.0
 10
550.6041002571066
 20
-272.1718186236873
 30
0.0
 10
545.613545035985
 20
-273.2998216499839
 30
0.0
 10
540.5509171228766
 20
-274.8072556252628
 30
0.0
 10
535.4938043553518
 20
-276.5914664183381
 30
0.0
 10
531.6787372668516
 20
-278.0653562132586
 30
0.0
 10
527.903543961788
 20
-279.6390252995851
 30
0.0
 10
524.1695306447998
 20
-281.3023290360754
 30
0.0
 10
520.49167915009
 20
-283.0438087399082
 30
0.0
 10
517.095321677396
 20
-284.7519693053569
 30
0.0
 10
514.0020322626234
 20
-286.3906045203234
 30
0.0
 10
512.2041613436871
 20
-287.4111202645407
 30
0.0
 10
511.3009491653181
 20
-287.9238057074644
 30
0.0
  0
LWPOLYLINE
  5
C5
330
1F
100
AcDbEntity
  8
0
  6
Continuous
 62
     7
370
    25
100
AcDbPolyline
 90
       93
 70
   128
 43
0.0
 10
408.7704688435
 20
-228.7342193035
 10
412.148296078
 20
-226.6509897978
 10
415.5103742206
 20
-224.3109820552
 10
418.8410276071
 20
-221.7251009734
 10
422.1247280873
 20
-218.905401284
 10
425.3461645013
 20
-215.8650291932
 10
428.490316766
 20
-212.6181674453
 10
431.5425269978
 20
-209.1799486372
 10
434.4885627328
 20
-205.5664035119
 10
437.3146880495
 20
-201.7943833986
 10
440.0077294238
 20
-197.8814704843
 10
442.5551244604
 20
-193.8459131787
 10
444.9450035533
 20
-189.706521178
 10
447.166218861
 20
-185.48260311
 10
449.2084154297
 20
-181.1938433454
 10
451.0620707057
 20
-176.8602457274
 10
452.7185445851
 20
-172.5020103817
 10
454.1701110237
 20
-168.1394591936
 10
455.4100028183
 20
-163.7929339104
 10
456.4324432163
 20
-159.4826957633
 10
457.2326590872
 20
-155.2288448596
 10
457.8069204349
 20
-151.0512152424
 10
458.1525509345
 20
-146.969283256
 10
458.2679437373
 20
-143.0020781927
 10
458.1525509345
 20
-139.1681028237
 10
457.8069204349
 20
-135.4852273179
 10
457.2326590872
 20
-131.9706257398
 10
456.4324432163
 20
-128.6406844147
 10
455.4100028183
 20
-125.5109308238
 10
454.1701110237
 20
-122.5959541352
 10
452.7185445851
 20
-119.9093458837
 10
451.0620707057
 20
-117.46363457
 10
449.2084154297
 20
-115.2702217786
 10
447.166218861
 20
-113.3393319835
 10
444.9450035533
 20
-111.6799745215
 10
442.5551244604
 20
-110.2998781882
 10
440.0077294238
 20
-109.2054805876
 10
437.3146880495
 20
-108.4018870602
 10
434.4885627328
 20
-107.8928417834
 10
431.5425269978
 20
-107.6807171164
 10
428.490316766
 20
-107.7665052312
 10
425.3461645013
 20
-108.1498044181
 10
422.1247280873
 20
-108.8288236414
 10
418.8410276071
 20
-109.8004038267
 10
415.5103742206
 20
-111.0600132914
 10
412.148296078
 20
-112.6017783464
 10
408.7704688435
 20
-114.4185051528
 10
405.3926416091
 20
-116.5017346584
 10
402.0305634665
 20
-118.8417424011
 10
398.69991008
 20
-121.4276234828
 10
395.4162095998
 20
-124.2473231723
 10
392.1947731858
 20
-127.2876952631
 10
389.0506209211
 20
-130.5345570109
 10
385.9984106893
 20
-133.9727758191
 10
383.0523749543
 20
-137.5863209444
 10
380.2262496376
 20
-141.3583410576
 10
377.5332082633
 20
-145.2712539719
 10
374.9858132267
 20
-149.3068112776
 10
372.5959341338
 20
-153.4462032782
 10
370.3747188261
 20
-157.6701213463
 10
368.3325222574
 20
-161.9588811109
 10
366.4788669814
 20
-166.2924787288
 10
364.822393102
 20
-170.6507140745
 10
363.3708266633
 20
-175.0132652627
 10
362.1309348688
 20
-179.3597905459
 10
361.1084944708
 20
-183.670028693
 10
360.3082785999
 20
-187.9238795967
 10
359.7340172522
 20
-192.1015092138
 10
359.3883867526
 20
-196.1834412003
 10
359.2729939498
 20
-200.1506462636
 10
359.3883867526
 20
-203.9846216326
 10
359.7340172522
 20
-207.6674971383
 10
360.3082785999
 20
-211.1820987164
 10
361.1084944708
 20
-214.5120400416
 10
362.1309348688
 20
-217.6417936324
 10
363.3708266633
 20
-220.556770321
 10
364.822393102
 20
-223.2433785725
 10
366.4788669814
 20
-225.6890898862
 10
368.3325222574
 20
-227.8825026776
 10
370.3747188261
 20
-229.8133924728
 10
372.5959341338
 20
-231.4727499347
 10
374.9858132267
 20
-232.852846268
 10
377.5332082633
 20
-233.9472438687
 10
380.2262496376
 20
-234.750837396
 10
383.0523749543
 20
-235.2598826729
 10
385.9984106893
 20
-235.4720073399
 10
389.0506209211
 20
-235.386219225
 10
392.1947731858
 20
-235.0029200381
 10
395.4162095998
 20
-234.3239008148
 10
398.69991008
 20
-233.3523206295
 10
402.0305634665
 20
-232.0927111648
 10
405.3926416091
 20
-230.5509461099
 10
408.7704688435
 20
-228.7342193035
  0
LWPOLYLINE
  5
C6
330
1F
100
AcDbEntity
  8
0
  6
Continuous
 62
     7
370
    25
100
AcDbPolyline
 90
       36
 70
   128
 43
0.0
 10
677.4710423227
 20
-383.8517586033
 10
680.8488695572
 20
-381.7685290977
 10
684.2109476998
 20
-379.428521355
 10
687.5416010863
 20
-376.8426402733
 10
690.8253015664
 20
-374.0229405838
 10
694.0467379804
 20
-370.982568493
 10
697.1908902452
 20
-367.7357067452
 10
700.243100477
 20
-364.297487937
 10
703.1891362119
 20
-360.6839428117
 10
706.0152615287
 20
-356.9119226985
 10
708.7083029029
 20
-352.9990097842
 10
711.2556979396
 20
-348.9634524785
 10
713.6455770325
 20
-344.8240604779
 10
715.8667923402
 20
-340.6001424098
 10
717.9089889088
 20
-336.3113826452
 10
719.7626441848
 20
-331.9777850273
 10
721.4191180642
 20
-327.6195496816
 10
722.8706845029
 20
-323.2569984934
 10
724.1105762974
 20
-318.9104732102
 10
725.1330166955
 20
-314.6002350631
 10
725.9332325664
 20
-310.3463841594
 10
726.507493914
 20
-306.1687545423
 10
726.8531244136
 20
-302.0868225558
 10
726.9685172165
 20
-298.1196174925
 10
726.8531244136
 20
-294.2856421235
 10
726.507493914
 20
-290.6027666178
 10
725.9332325664
 20
-287.0881650397
 10
725.1330166955
 20
-283.7582237145
 10
724.1105762974
 20
-280.6284701237
 10
722.8706845029
 20
-277.7134934351
 10
721.4191180642
 20
-275.0268851836
 10
719.7626441848
 20
-272.5811738699
 10
717.9089889088
 20
-270.3877610785
 10
715.8667923402
 20
-268.4568712833
 10
713.6455770325
 20
-266.7975138214
 10
712.4681969168
 20
-266.0704814292
  0
LWPOLYLINE
  5
C7
330
1F
100
AcDbEntity
  8
0
  6
Continuous
 62
     7
370
    25
100
AcDbPolyline
 90
       13
 70
   128
 43
0.0
 10
642.4738877286
 20
-387.3173216268
 10
643.6863867058
 20
-387.9703855679
 10
646.2337817425
 20
-389.0647831685
 10
648.9268231167
 20
-389.8683766959
 10
651.7529484335
 20
-390.3774219727
 10
654.6989841684
 20
-390.5895466397
 10
657.7511944002
 20
-390.5037585249
 10
660.895346665
 20
-390.120459338
 10
664.116783079
 20
-389.4414401147
 10
667.4004835591
 20
-388.4698599294
 10
670.7311369456
 20
-387.2102504647
 10
674.0932150882
 20
-385.6684854097
 10
677.4710423227
 20
-383.8517586033
  0
LWPOLYLINE
  5
C8
330
1F
100
AcDbEntity
  8
0
  6
Continuous
 62
     7
370
    25
100
AcDbPolyline
 90
       87
 70
   128
 43
0.0
 10
408.7704688435
 20
-221.9569314311
 10
411.955143986
 20
-219.9840564349
 10
415.1228280217
 20
-217.7529057337
 10
418.2566187471
 20
-215.2753812672
 10
421.3397970344
 20
-212.5647059164
 10
424.3559124417
 20
-209.6353406208
 10
427.288873434
 20
-206.5029110028
 10
430.1230303596
 20
-203.184135131
 10
432.8432604024
 20
-199.6967197252
 10
435.4350545098
 20
-196.0592673883
 10
437.8845792959
 20
-192.2911891584
 10
440.1787692376
 20
-188.4125874065
 10
442.3053806754
 20
-184.4441607837
 10
444.2530708388
 20
-180.4070734288
 10
446.0114452612
 20
-176.3228758848
 10
447.5711236347
 20
-172.2133484496
 10
448.9237819566
 20
-168.1004266549
 10
450.0622052134
 20
-164.0060491778
 10
450.9803189904
 20
-159.9520620265
 10
451.6732263508
 20
-155.9600953479
 10
452.1372289086
 20
-152.0514482199
 10
452.3698505365
 20
-148.2469751542
 10
452.3698505365
 20
-144.5669746903
 10
452.1372289086
 20
-141.0310808393
 10
451.6732263508
 20
-137.6581596612
 10
450.9803189904
 20
-134.4662067922
 10
450.0622052134
 20
-131.4722512445
 10
448.9237819566
 20
-128.692269282
 10
447.5711236347
 20
-126.141093543
 10
446.0114452612
 20
-123.8323324275
 10
444.2530708388
 20
-121.7783107781
 10
442.3053806754
 20
-119.9899786198
 10
440.1787692376
 20
-118.4768852999
 10
437.8845792959
 20
-117.247098873
 10
435.4350545098
 20
-116.307181762
 10
432.8432604024
 20
-115.662151206
 10
430.1230303596
 20
-115.3154465558
 10
427.288873434
 20
-115.2689186185
 10
424.3559124417
 20
-115.5228136822
 10
421.3397970344
 20
-116.0757811124
 10
418.2566187471
 20
-116.9248676404
 10
415.1228280217
 20
-118.06554093
 10
411.955143986
 20
-119.4917203679
 10
408.7704688435
 20
-121.1957930251
 10
405.5857937011
 20
-123.1686680214
 10
402.4181096654
 20
-125.3998187226
 10
399.28431894
 20
-127.877343189
 10
396.2011406527
 20
-130.5880185399
 10
393.1850252454
 20
-133.5173838355
 10
390.2520642531
 20
-136.6498134535
 10
387.4179073275
 20
-139.9685893253
 10
384.6976772847
 20
-143.456004731
 10
382.1058831773
 20
-147.093457068
 10
379.6563583912
 20
-150.8615352979
 10
377.3621684495
 20
-154.7401370498
 10
375.2355570117
 20
-158.7085636726
 10
373.2878668483
 20
-162.7456510275
 10
371.5294924259
 20
-166.8298485715
 10
369.9698140524
 20
-170.9393760066
 10
368.6171557305
 20
-175.0522978014
 10
367.4787324737
 20
-179.1466752784
 10
366.5606186967
 20
-183.2006624297
 10
365.8677113363
 20
-187.1926291083
 10
365.4037087785
 20
-191.1012762364
 10
365.1710871506
 20
-194.905749302
 10
365.1710871506
 20
-198.5857497659
 10
365.4037087785
 20
-202.1216436169
 10
365.8677113363
 20
-205.494564795
 10
366.5606186967
 20
-208.6865176641
 10
367.4787324737
 20
-211.6804732118
 10
368.6171557305
 20
-214.4604551742
 10
369.9698140524
 20
-217.0116309132
 10
371.5294924259
 20
-219.3203920287
 10
373.2878668483
 20
-221.3744136781
 10
375.2355570117
 20
-223.1627458365
 10
377.3621684495
 20
-224.6758391564
 10
379.6563583912
 20
-225.9056255832
 10
382.1058831773
 20
-226.8455426942
 10
384.6976772847
 20
-227.4905732502
 10
387.4179073275
 20
-227.8372779005
 10
390.2520642531
 20
-227.8838058378
 10
393.1850252454
 20
-227.6299107741
 10
396.2011406527
 20
-227.0769433439
 10
399.28431894
 20
-226.2278568159
 10
402.4181096654
 20
-225.0871835262
 10
405.5857937011
 20
-223.6610040883
 10
408.7704688435
 20
-221.9569314311
  0
LWPOLYLINE
  5
C9
330
1F
100
AcDbEntity
  8
0
  6
Continuous
 62
     7
370
    25
100
AcDbPolyline
 90
       70
 70
   128
 43
0.0
 10
571.1221839664
 20
-408.1946520511
 10
573.5524754662
 20
-406.6577271768
 10
575.7306000664
 20
-404.9995903412
 10
577.6385095317
 20
-403.2339817309
 10
579.2603953365
 20
-401.3755322699
 10
580.5828146117
 20
-399.4396392095
 10
581.594813128
 20
-397.4423464691
 10
582.2880010284
 20
-395.4002035942
 10
582.656639756
 20
-393.3301319359
 10
582.697669713
 20
-391.2492855094
 10
582.4107524076
 20
-389.174906529
 10
581.7982678196
 20
-387.1241824647
 10
580.8652880588
 20
-385.1141091809
 10
579.6195464134
 20
-383.1613407697
 10
578.0713622758
 20
-381.2820595325
 10
576.2335680442
 20
-379.4918364579
 10
574.1213889385
 20
-377.8055070962
 10
571.7523315001
 20
-376.2370433239
 10
569.1460213019
 20
-374.799444448
 10
566.3240589743
 20
-373.5046206374
 10
563.3098263457
 20
-372.3633022993
 10
560.1282997045
 20
-371.3849474843
 10
556.8058451971
 20
-370.5776602689
 10
553.3699893255
 20
-369.9481343003
 10
549.8492075541
 20
-369.5015824647
 10
546.2726707705
 20
-369.2417060937
 10
542.6700147946
 20
-369.1706592288
 10
539.0710954003
 20
-369.2890303724
 10
535.5057327999
 20
-369.5958379266
 10
532.0034693001
 20
-370.0885393166
 10
528.5933269573
 20
-370.7630538016
 10
525.303565892
 20
-371.6137909867
 10
522.1614432615
 20
-372.6337017662
 10
519.1929952813
 20
-373.8143342084
 10
516.4228190827
 20
-375.1459047424
 10
513.8738715274
 20
-376.6173808449
 10
511.567273784
 20
-378.2165695246
 10
509.5221368141
 20
-379.9302180675
 10
507.7554080961
 20
-381.744126852
 10
506.2817283914
 20
-383.6432654907
 10
505.1133084322
 20
-385.6118987616
 10
504.2598321157
 20
-387.6337124446
 10
503.7283682585
 20
-389.6919524629
 10
503.5233212064
 20
-391.769564406
 10
503.6463913211
 20
-393.8493334318
 10
504.0965591759
 20
-395.9140241688
 10
504.8700934575
 20
-397.9465282223
 10
505.9605825766
 20
-399.9300055975
 10
507.3589965709
 20
-401.8480177586
 10
509.0537404474
 20
-403.6846739942
 10
511.0307760126
 20
-405.4247534521
 10
513.273719667
 20
-407.0538376278
 10
515.7639837862
 20
-408.5584284791
 10
518.4809371173
 20
-409.9260562275
 10
521.4020617599
 20
-411.145391271
 10
524.503155092
 20
-412.2063272982
 10
527.7585184019
 20
-413.1000749769
 10
531.1411790238
 20
-413.8192263212
 10
534.6231053522
 20
-414.3578240727
 10
538.1754485276
 20
-414.7114038992
 10
541.7687676595
 20
-414.877037734
 10
545.3732899505
 20
-414.853351644
 10
548.9591477731
 20
-414.6405410364
 10
552.4966262819
 20
-414.2403721793
 10
555.956413661
 20
-413.6561578712
 10
559.3098421507
 20
-412.8927414734
 10
562.5291198558
 20
-411.9564467279
 10
565.5875750652
 20
-410.8550340378
 10
568.4598635288
 20
-409.5976294707
 10
571.1221839664
 20
-408.1946520511
  0
LWPOLYLINE
  5
CA
330
1F
100
AcDbEntity
  8
0
  6
Continuous
 62
     7
370
    25
100
AcDbPolyline
 90
       75
 70
   128
 43
0.0
 10
574.9405620009
 20
-410.3989547705
 10
577.5244384277
 20
-408.7749639177
 10
579.8604360675
 20
-407.0303239447
 10
581.9317231812
 20
-405.1776044008
 10
583.7233751747
 20
-403.2301534225
 10
585.2224872098
 20
-401.2020053528
 10
586.4182512539
 20
-399.1077693511
 10
587.3020588134
 20
-396.9625366319
 10
587.8675391286
 20
-394.7817641329
 10
588.1106184432
 20
-392.5811642659
 10
588.0295437118
 20
-390.376589345
 10
587.6248997217
 20
-388.1839274203
 10
586.8996038253
 20
-386.0189730202
 10
585.8588769634
 20
-383.8973283073
 10
584.5102239092
 20
-381.8342776222
 10
582.8633575356
 20
-379.8446859785
 10
580.9301461318
 20
-377.9428865324
 10
578.7245162677
 20
-376.1425849702
 10
576.2623597748
 20
-374.4567510647
 10
573.5614181713
 20
-372.8975306659
 10
570.6411517769
 20
-371.4761579774
 10
567.5226001006
 20
-370.2028749594
 10
564.2282298824
 20
-369.0868557711
 10
560.7817826394
 20
-368.1361400502
 10
557.2080868168
 20
-367.3575792141
 10
553.5328921634
 20
-366.7567803851
 10
549.7826748025
 20
-366.3380759765
 10
545.9844614008
 20
-366.1044799733
 10
542.1656118484
 20
-366.057676527
 10
538.3536480373
 20
-366.1980032284
 10
534.5760299566
 20
-366.5244480658
 10
530.8599752506
 20
-367.0346593097
 10
527.232259022
 20
-367.724959199
 10
523.7190228536
 20
-368.5903781559
 10
520.3455732937
 20
-369.624676836
 10
517.1362211714
 20
-370.820405435
 10
514.1140886429
 20
-372.1689481679
 10
511.3009491653
 20
-373.6605882786
 10
508.7170727385
 20
-375.2845791314
 10
506.3810750987
 20
-377.0292191044
 10
504.309787985
 20
-378.8819386484
 10
502.5181359915
 20
-380.8293896266
 10
501.0190239565
 20
-382.8575376963
 10
499.8232599123
 20
-384.951773698
 10
498.9394523528
 20
-387.0970064172
 10
498.3739720376
 20
-389.2777789162
 10
498.130892723
 20
-391.4783787832
 10
498.2119674545
 20
-393.6829537041
 10
498.6166114445
 20
-395.8756156288
 10
499.3419073409
 20
-398.0405700289
 10
500.3826342028
 20
-400.1622147419
 10
501.7312872571
 20
-402.225265427
 10
503.3781536306
 20
-404.2148570707
 10
505.3113650345
 20
-406.1166565168
 10
507.5169948986
 20
-407.916958079
 10
509.9791513915
 20
-409.6027919845
 10
512.6800929949
 20
-411.1620123832
 10
515.6003593894
 20
-412.5833850718
 10
518.7189110656
 20
-413.8566680897
 10
522.0132812839
 20
-414.972687278
 10
525.4597285268
 20
-415.923402999
 10
529.0334243494
 20
-416.701963835
 10
532.7086190029
 20
-417.3027626641
 10
536.4588363638
 20
-417.7214670727
 10
540.2570497655
 20
-417.9550630759
 10
544.0758993179
 20
-418.0018665221
 10
547.8878631289
 20
-417.8615398207
 10
551.6654812097
 20
-417.5350949834
 10
555.3815359157
 20
-417.0248837394
 10
559.0092521442
 20
-416.3345838502
 10
562.5224883127
 20
-415.4691648933
 10
565.8959378725
 20
-414.4348662131
 10
569.1052899948
 20
-413.2391376142
 10
572.1274225233
 20
-411.8905948812
 10
574.9405620009
 20
-410.3989547705
  0
ENDSEC
  0
SECTION
  2
OBJECTS
  0
DICTIONARY
  5
C
330
0
100
AcDbDictionary
281
     1
  3
ACAD_GROUP
350
D
  3
ACAD_LAYOUT
350
1A
  3
ACAD_MLINESTYLE
350
17
  3
ACAD_PLOTSETTINGS
350
19
  3
ACAD_PLOTSTYLENAME
350
E
  3
ACAD_SCALELIST
350
47
  0
DICTIONARY
  5
D
102
{ACAD_REACTORS
330
C
102
}
330
C
100
AcDbDictionary
281
     1
  0
DICTIONARY
  5
1A
102
{ACAD_REACTORS
330
C
102
}
330
C
100
AcDbDictionary
281
     1
  3
Layout1
350
1E
  3
Layout2
350
26
  3
Model
350
22
  0
DICTIONARY
  5
17
102
{ACAD_REACTORS
330
C
102
}
330
C
100
AcDbDictionary
281
     1
  3
Standard
350
18
  0
DICTIONARY
  5
19
102
{ACAD_REACTORS
330
C
102
}
330
C
100
AcDbDictionary
281
     1
  0
ACDBDICTIONARYWDFLT
  5
E
102
{ACAD_REACTORS
330
C
102
}
330
C
100
AcDbDictionary
281
     1
  3
Normal
350
F
100
AcDbDictionaryWithDefault
340
F
  0
DICTIONARY
  5
47
102
{ACAD_REACTORS
330
C
102
}
330
C
100
AcDbDictionary
281
     1
  3
A0
350
48
  3
A1
350
49
  3
A2
350
4A
  3
A3
350
4B
  3
A4
350
4C
  3
A5
350
4D
  3
A6
350
4E
  3
A7
350
4F
  3
A8
350
50
  3
A9
350
51
  3
B0
350
52
  3
B1
350
53
  3
B2
350
54
  3
B3
350
55
  3
B4
350
56
  3
B5
350
57
  3
B6
350
58
  3
B7
350
59
  3
B8
350
5A
  3
B9
350
5B
  3
C0
350
5C
  3
C1
350
5D
  3
C2
350
5E
  3
C3
350
5F
  3
C4
350
60
  3
C5
350
61
  3
C6
350
62
  3
C7
350
63
  3
C8
350
64
  3
C9
350
65
  3
D0
350
66
  3
D1
350
67
  3
D2
350
68
  0
LAYOUT
  5
1E
102
{ACAD_REACTORS
330
1A
102
}
330
1A
100
AcDbPlotSettings
  1

  2
none_device
  4

  6

 40
0.0
 41
0.0
 42
0.0
 43
0.0
 44
0.0
 45
0.0
 46
0.0
 47
0.0
 48
0.0
 49
0.0
140
0.0
141
0.0
142
1.0
143
1.0
 70
   688
 72
     1
 73
     0
 74
     5
  7

 75
    16
147
1.0
148
0.0
149
0.0
100
AcDbLayout
  1
Layout1
 70
     1
 71
     1
 10
0.0
 20
0.0
 11
420.0
 21
297.0
 12
0.0
 22
0.0
 32
0.0
 14
1.0000000000E+20
 24
1.0000000000E+20
 34
1.0000000000E+20
 15
-1.0000000000E+20
 25
-1.0000000000E+20
 35
-1.0000000000E+20
146
0.0
 13
0.0
 23
0.0
 33
0.0
 16
1.0
 26
0.0
 36
0.0
 17
0.0
 27
1.0
 37
0.0
 76
     0
330
1B
  0
LAYOUT
  5
26
102
{ACAD_REACTORS
330
1A
102
}
330
1A
100
AcDbPlotSettings
  1

  2
none_device
  4

  6

 40
0.0
 41
0.0
 42
0.0
 43
0.0
 44
0.0
 45
0.0
 46
0.0
 47
0.0
 48
0.0
 49
0.0
140
0.0
141
0.0
142
1.0
143
1.0
 70
   688
 72
     1
 73
     0
 74
     5
  7

 75
    16
147
1.0
148
0.0
149
0.0
100
AcDbLayout
  1
Layout2
 70
     1
 71
     2
 10
0.0
 20
0.0
 11
0.0
 21
0.0
 12
0.0
 22
0.0
 32
0.0
 14
0.0
 24
0.0
 34
0.0
 15
0.0
 25
0.0
 35
0.0
146
0.0
 13
0.0
 23
0.0
 33
0.0
 16
1.0
 26
0.0
 36
0.0
 17
0.0
 27
1.0
 37
0.0
 76
     0
330
23
  0
LAYOUT
  5
22
102
{ACAD_REACTORS
330
1A
102
}
330
1A
100
AcDbPlotSettings
  1

  2
none_device
  4
Letter_(8.50_x_11.00_Inches)
  6

 40
6.35
 41
6.35
 42
6.35000508
 43
6.35000508
 44
215.9
 45
279.4
 46
0.0
 47
0.0
 48
0.0
 49
0.0
140
0.0
141
0.0
142
1.0
143
1.0
 70
  1712
 72
     1
 73
     0
 74
     0
  7

 75
     0
147
1.0
148
0.0
149
0.0
100
AcDbLayout
  1
Model
 70
     1
 71
     0
 10
0.0
 20
0.0
 11
279.4
 21
215.9
 12
0.0
 22
0.0
 32
0.0
 14
0.0
 24
0.0
 34
0.0
 15
279.4
 25
215.9
 35
0.0
146
0.0
 13
0.0
 23
0.0
 33
0.0
 16
1.0
 26
0.0
 36
0.0
 17
0.0
 27
1.0
 37
0.0
 76
     0
330
1F
331
29
  0
MLINESTYLE
  5
18
102
{ACAD_REACTORS
330
17
102
}
330
17
100
AcDbMlineStyle
  2
Standard
 70
     0
  3

 62
   256
 51
90.0
 52
90.0
 71
     2
 49
0.5
 62
   256
  6
BYLAYER
 49
-0.5
 62
   256
  6
BYLAYER
  0
ACDBPLACEHOLDER
  5
F
102
{ACAD_REACTORS
330
E
102
}
330
E
  0
SCALE
  5
48
102
{ACAD_REACTORS
330
47
102
}
330
47
100
AcDbScale
 70
     0
300
1:1
140
1.0
141
1.0
290
     1
  0
SCALE
  5
49
102
{ACAD_REACTORS
330
47
102
}
330
47
100
AcDbScale
 70
     0
300
1:2
140
1.0
141
2.0
290
     0
  0
SCALE
  5
4A
102
{ACAD_REACTORS
330
47
102
}
330
47
100
AcDbScale
 70
     0
300
1:4
140
1.0
141
4.0
290
     0
  0
SCALE
  5
4B
102
{ACAD_REACTORS
330
47
102
}
330
47
100
AcDbScale
 70
     0
300
1:5
140
1.0
141
5.0
290
     0
  0
SCALE
  5
4C
102
{ACAD_REACTORS
330
47
102
}
330
47
100
AcDbScale
 70
     0
300
1:8
140
1.0
141
8.0
290
     0
  0
SCALE
  5
4D
102
{ACAD_REACTORS
330
47
102
}
330
47
100
AcDbScale
 70
     0
300
1:10
140
1.0
141
10.0
290
     0
  0
SCALE
  5
4E
102
{ACAD_REACTORS
330
47
102
}
330
47
100
AcDbScale
 70
     0
300
1:16
140
1.0
141
16.0
290
     0
  0
SCALE
  5
4F
102
{ACAD_REACTORS
330
47
102
}
330
47
100
AcDbScale
 70
     0
300
1:20
140
1.0
141
20.0
290
     0
  0
SCALE
  5
50
102
{ACAD_REACTORS
330
47
102
}
330
47
100
AcDbScale
 70
     0
300
1:30
140
1.0
141
30.0
290
     0
  0
SCALE
  5
51
102
{ACAD_REACTORS
330
47
102
}
330
47
100
AcDbScale
 70
     0
300
1:40
140
1.0
141
40.0
290
     0
  0
SCALE
  5
52
102
{ACAD_REACTORS
330
47
102
}
330
47
100
AcDbScale
 70
     0
300
1:50
140
1.0
141
50.0
290
     0
  0
SCALE
  5
53
102
{ACAD_REACTORS
330
47
102
}
330
47
100
AcDbScale
 70
     0
300
1:100
140
1.0
141
100.0
290
     0
  0
SCALE
  5
54
102
{ACAD_REACTORS
330
47
102
}
330
47
100
AcDbScale
 70
     0
300
2:1
140
2.0
141
1.0
290
     0
  0
SCALE
  5
55
102
{ACAD_REACTORS
330
47
102
}
330
47
100
AcDbScale
 70
     0
300
4:1
140
4.0
141
1.0
290
     0
  0
SCALE
  5
56
102
{ACAD_REACTORS
330
47
102
}
330
47
100
AcDbScale
 70
     0
300
8:1
140
8.0
141
1.0
290
     0
  0
SCALE
  5
57
102
{ACAD_REACTORS
330
47
102
}
330
47
100
AcDbScale
 70
     0
300
10:1
140
10.0
141
1.0
290
     0
  0
SCALE
  5
58
102
{ACAD_REACTORS
330
47
102
}
330
47
100
AcDbScale
 70
     0
300
100:1
140
100.0
141
1.0
290
     0
  0
SCALE
  5
59
102
{ACAD_REACTORS
330
47
102
}
330
47
100
AcDbScale
 70
     0
300
1/128" = 1'-0"
140
0.0078125
141
12.0
290
     0
  0
SCALE
  5
5A
102
{ACAD_REACTORS
330
47
102
}
330
47
100
AcDbScale
 70
     0
300
1/64" = 1'-0"
140
0.015625
141
12.0
290
     0
  0
SCALE
  5
5B
102
{ACAD_REACTORS
330
47
102
}
330
47
100
AcDbScale
 70
     0
300
1/32" = 1'-0"
140
0.03125
141
12.0
290
     0
  0
SCALE
  5
5C
102
{ACAD_REACTORS
330
47
102
}
330
47
100
AcDbScale
 70
     0
300
1/16" = 1'-0"
140
0.0625
141
12.0
290
     0
  0
SCALE
  5
5D
102
{ACAD_REACTORS
330
47
102
}
330
47
100
AcDbScale
 70
     0
300
3/32" = 1'-0"
140
0.09375
141
12.0
290
     0
  0
SCALE
  5
5E
102
{ACAD_REACTORS
330
47
102
}
330
47
100
AcDbScale
 70
     0
300
1/8" = 1'-0"
140
0.125
141
12.0
290
     0
  0
SCALE
  5
5F
102
{ACAD_REACTORS
330
47
102
}
330
47
100
AcDbScale
 70
     0
300
3/16" = 1'-0"
140
0.1875
141
12.0
290
     0
  0
SCALE
  5
60
102
{ACAD_REACTORS
330
47
102
}
330
47
100
AcDbScale
 70
     0
300
1/4" = 1'-0"
140
0.25
141
12.0
290
     0
  0
SCALE
  5
61
102
{ACAD_REACTORS
330
47
102
}
330
47
100
AcDbScale
 70
     0
300
3/8" = 1'-0"
140
0.375
141
12.0
290
     0
  0
SCALE
  5
62
102
{ACAD_REACTORS
330
47
102
}
330
47
100
AcDbScale
 70
     0
300
1/2" = 1'-0"
140
0.5
141
12.0
290
     0
  0
SCALE
  5
63
102
{ACAD_REACTORS
330
47
102
}
330
47
100
AcDbScale
 70
     0
300
3/4" = 1'-0"
140
0.75
141
12.0
290
     0
  0
SCALE
  5
64
102
{ACAD_REACTORS
330
47
102
}
330
47
100
AcDbScale
 70
     0
300
1" = 1'-0"
140
1.0
141
12.0
290
     0
  0
SCALE
  5
65
102
{ACAD_REACTORS
330
47
102
}
330
47
100
AcDbScale
 70
     0
300
1-1/2" = 1'-0"
140
1.5
141
12.0
290
     0
  0
SCALE
  5
66
102
{ACAD_REACTORS
330
47
102
}
330
47
100
AcDbScale
 70
     0
300
3" = 1'-0"
140
3.0
141
12.0
290
     0
  0
SCALE
  5
67
102
{ACAD_REACTORS
330
47
102
}
330
47
100
AcDbScale
 70
     0
300
6" = 1'-0"
140
6.0
141
12.0
290
     0
  0
SCALE
  5
68
102
{ACAD_REACTORS
330
47
102
}
330
47
100
AcDbScale
 70
     0
300
1'-0" = 1'-0"
140
12.0
141
12.0
290
     0
  0
ENDSEC
  0
EOF
